  0
SECTION
  2
HEADER
  9
$ACADVER
  1
AC1009
  9
$INSBASE
 10
272.1645974812673
 20
276.6964019324671
 30
0.0
  9
$EXTMIN
 10
272.1495658397699
 20
276.6957074033471
 30
0.0
  9
$EXTMAX
 10
318.8524145398729
 20
292.2957074033471
 30
0.0
  9
$LIMMIN
 10
0.0
 20
0.0
  9
$LIMMAX
 10
420.0
 20
297.0
  9
$ORTHOMODE
 70
     0
  9
$REGENMODE
 70
     0
  9
$FILLMODE
 70
     1
  9
$QTEXTMODE
 70
     0
  9
$MIRRTEXT
 70
     0
  9
$DRAGMODE
 70
     2
  9
$LTSCALE
 40
1.0
  9
$OSMODE
 70
     0
  9
$ATTMODE
 70
     1
  9
$TEXTSIZE
 40
2.484999999999999
  9
$TRACEWID
 40
0.1
  9
$TEXTSTYLE
  7
STANDARD
  9
$CLAYER
  8
4AN
  9
$CELTYPE
  6
BYLAYER
  9
$CECOLOR
 62
   256
  9
$DIMSCALE
 40
1.0
  9
$DIMASZ
 40
2.5
  9
$DIMEXO
 40
1.0
  9
$DIMDLI
 40
8.0
  9
$DIMRND
 40
0.0
  9
$DIMDLE
 40
0.0
  9
$DIMEXE
 40
2.0
  9
$DIMTP
 40
0.1
  9
$DIMTM
 40
0.1
  9
$DIMTXT
 40
3.5
  9
$DIMCEN
 40
2.0
  9
$DIMTSZ
 40
0.0
  9
$DIMTOL
 70
     0
  9
$DIMLIM
 70
     0
  9
$DIMTIH
 70
     0
  9
$DIMTOH
 70
     0
  9
$DIMSE1
 70
     0
  9
$DIMSE2
 70
     0
  9
$DIMTAD
 70
     1
  9
$DIMZIN
 70
     8
  9
$DIMBLK
  1

  9
$DIMASO
 70
     1
  9
$DIMSHO
 70
     1
  9
$DIMPOST
  1

  9
$DIMAPOST
  1

  9
$DIMALT
 70
     0
  9
$DIMALTD
 70
     2
  9
$DIMALTF
 40
25.39999999999999
  9
$DIMLFAC
 40
1.0
  9
$DIMTOFL
 70
     1
  9
$DIMTVP
 40
0.0
  9
$DIMTIX
 70
     0
  9
$DIMSOXD
 70
     0
  9
$DIMSAH
 70
     0
  9
$DIMBLK1
  1

  9
$DIMBLK2
  1

  9
$DIMSTYLE
  2
*UNNAMED
  9
$DIMCLRD
 70
   256
  9
$DIMCLRE
 70
   256
  9
$DIMCLRT
 70
     2
  9
$DIMTFAC
 40
0.71
  9
$DIMGAP
 40
1.5
  9
$LUNITS
 70
     2
  9
$LUPREC
 70
     3
  9
$SKETCHINC
 40
0.1
  9
$FILLETRAD
 40
2.5
  9
$AUNITS
 70
     0
  9
$AUPREC
 70
     1
  9
$MENU
  1

  9
$ELEVATION
 40
0.0
  9
$PELEVATION
 40
0.0
  9
$THICKNESS
 40
0.0
  9
$LIMCHECK
 70
     0
  9
$BLIPMODE
 70
     0
  9
$CHAMFERA
 40
2.5
  9
$CHAMFERB
 40
2.5
  9
$SKPOLY
 70
     1
  9
$TDCREATE
 40
2449373.552024652
  9
$TDUPDATE
 40
2449394.634381134
  9
$TDINDWG
 40
0.0051894676
  9
$TDUSRTIMER
 40
0.0051894676
  9
$USRTIMER
 70
     1
  9
$ANGBASE
 50
0.0
  9
$ANGDIR
 70
     0
  9
$PDMODE
 70
     3
  9
$PDSIZE
 40
0.0
  9
$PLINEWID
 40
0.0
  9
$COORDS
 70
     2
  9
$SPLFRAME
 70
     0
  9
$SPLINETYPE
 70
     6
  9
$SPLINESEGS
 70
     8
  9
$ATTDIA
 70
     1
  9
$ATTREQ
 70
     1
  9
$HANDLING
 70
     0
  9
$HANDSEED
  5
12A4C
  9
$SURFTAB1
 70
     6
  9
$SURFTAB2
 70
     6
  9
$SURFTYPE
 70
     6
  9
$SURFU
 70
     6
  9
$SURFV
 70
     6
  9
$UCSNAME
  2

  9
$UCSORG
 10
0.0
 20
0.0
 30
0.0
  9
$UCSXDIR
 10
1.0
 20
0.0
 30
0.0
  9
$UCSYDIR
 10
0.0
 20
1.0
 30
0.0
  9
$PUCSNAME
  2

  9
$PUCSORG
 10
0.0
 20
0.0
 30
0.0
  9
$PUCSXDIR
 10
1.0
 20
0.0
 30
0.0
  9
$PUCSYDIR
 10
0.0
 20
1.0
 30
0.0
  9
$USERI1
 70
     0
  9
$USERI2
 70
     3
  9
$USERI3
 70
    15
  9
$USERI4
 70
     0
  9
$USERI5
 70
     0
  9
$USERR1
 40
1.0
  9
$USERR2
 40
1.0
  9
$USERR3
 40
0.0
  9
$USERR4
 40
1.0
  9
$USERR5
 40
0.0
  9
$WORLDVIEW
 70
     5
  9
$SHADEDGE
 70
     3
  9
$SHADEDIF
 70
    70
  9
$TILEMODE
 70
     1
  9
$MAXACTVP
 70
     4
  9
$PINSBASE
 10
9.894451402545646E+73
 20
0.0
 30
0.0
  9
$PLIMCHECK
 70
     0
  9
$PEXTMIN
 10
1.000000000000000E+20
 20
1.000000000000000E+20
 30
1.000000000000000E+20
  9
$PEXTMAX
 10
-1.000000000000000E+20
 20
-1.000000000000000E+20
 30
-1.000000000000000E+20
  9
$PLIMMIN
 10
0.0
 20
0.0
  9
$PLIMMAX
 10
12.0
 20
12.0
  9
$UNITMODE
 70
     0
  9
$VISRETAIN
 70
     0
  9
$PLINEGEN
 70
     0
  9
$PSLTSCALE
 70
     0
  9
$TREEDEPTH
 70
  3020
  9
$DWGCODEPAGE
  3
undefined
  0
ENDSEC
  0
SECTION
  2
TABLES
  0
TABLE
  2
VPORT
 70
     2
  0
VPORT
  2
*ACTIVE
 70
     0
 10
0.0
 20
0.0
 11
1.0
 21
1.0
 12
295.4515047746406
 22
294.9509690904081
 13
0.0
 23
0.0
 14
1.0
 24
1.0
 15
10.0
 25
10.0
 16
0.0
 26
0.0
 36
1.0
 17
0.0
 27
0.0
 37
0.0
 40
36.50913431588191
 41
1.275675675675675
 42
50.0
 43
0.0
 44
0.0
 50
0.0
 51
0.0
 71
     0
 72
 20000
 73
     1
 74
     0
 75
     0
 76
     0
 77
     0
 78
     0
  0
ENDTAB
  0
TABLE
  2
LTYPE
 70
     1
  0
LTYPE
  2
CONTINUOUS
 70
    64
  3
Solid line
 72
    65
 73
     0
 40
0.0
  0
ENDTAB
  0
TABLE
  2
LAYER
 70
     5
  0
LAYER
  2
0
 70
     0
 62
     7
  6
CONTINUOUS
  0
LAYER
  2
ITEM_50
 70
    64
 62
     7
  6
CONTINUOUS
  0
LAYER
  2
ITEM_25
 70
    64
 62
     3
  6
CONTINUOUS
  0
LAYER
  2
ITEM_HILFE
 70
    64
 62
     3
  6
CONTINUOUS
  0
LAYER
  2
4AN
 70
     0
 62
     3
  6
CONTINUOUS
  0
ENDTAB
  0
TABLE
  2
STYLE
 70
     1
  0
STYLE
  2
STANDARD
 70
     0
 40
0.0
 41
1.0
 50
0.0
 71
     0
 42
2.484999999999999
  3
GENISO
  4

  0
ENDTAB
  0
TABLE
  2
VIEW
 70
     0
  0
ENDTAB
  0
TABLE
  2
UCS
 70
     0
  0
ENDTAB
  0
TABLE
  2
APPID
 70
     1
  0
APPID
  2
ACAD
 70
    64
  0
ENDTAB
  0
TABLE
  2
DIMSTYLE
 70
     0
  0
ENDTAB
  0
ENDSEC
  0
SECTION
  2
BLOCKS
  0
ENDSEC
  0
SECTION
  2
ENTITIES
  0
LINE
  8
ITEM_50
 10
314.6453974846028
 20
277.5957074033472
 30
0.0
 11
306.7353974846028
 21
277.5957074033472
 31
0.0
  0
LINE
  8
ITEM_50
 10
314.6453974846028
 20
291.3957074033471
 30
0.0
 11
306.7353974846028
 21
291.3957074033471
 31
0.0
  0
LINE
  8
ITEM_50
 10
318.7353974846028
 20
279.4957074033471
 30
0.0
 11
318.7353974846028
 21
277.495707403347
 31
0.0
  0
LINE
  8
ITEM_50
 10
318.7353974846028
 20
289.4957074033472
 30
0.0
 11
318.7353974846028
 21
279.4957074033471
 31
0.0
  0
LINE
  8
ITEM_50
 10
318.7353974846027
 20
291.3957074033471
 30
0.0
 11
318.7353974846028
 21
289.4957074033472
 31
0.0
  0
LINE
  8
ITEM_50
 10
314.9967189623379
 20
292.2783503588174
 30
0.0
 11
314.6453974846028
 21
291.3957074033471
 31
0.0
  0
LINE
  8
ITEM_50
 10
314.9967189623379
 20
292.2783503588174
 30
0.0
 11
318.3840760068677
 21
292.2783503588173
 31
0.0
  0
LINE
  8
ITEM_50
 10
314.996718962338
 20
276.7130644478769
 30
0.0
 11
314.6453974846029
 21
277.5957074033471
 31
0.0
  0
LINE
  8
ITEM_50
 10
314.996718962338
 20
276.7130644478769
 30
0.0
 11
318.3840760068678
 21
276.7130644478769
 31
0.0
  0
LINE
  8
ITEM_50
 10
318.7353974846028
 20
277.4957074033471
 30
0.0
 11
318.3840760068678
 21
276.7130644478769
 31
0.0
  0
LINE
  8
ITEM_50
 10
318.3840760068677
 20
292.2783503588173
 30
0.0
 11
318.7353974846027
 21
291.3957074033471
 31
0.0
  0
LINE
  8
ITEM_50
 10
314.6453974846028
 20
291.3957074033471
 30
0.0
 11
314.6453974846028
 21
277.5957074033472
 31
0.0
  0
ARC
  8
ITEM_50
 10
318.2373805914653
 20
290.4876699223914
 30
0.0
 40
3.595
 50
177.6525382610169
 51
207.325211651717
  0
ARC
  8
ITEM_50
 10
315.1434143777403
 20
290.4876699223914
 30
0.0
 40
3.595
 50
332.6747883482828
 51
2.347461738982942
  0
LINE
  8
ITEM_50
 10
315.0252931312024
 20
288.8374192348336
 30
0.0
 11
318.3555018380033
 21
288.8374192348336
 31
0.0
  0
LINE
  8
ITEM_50
 10
315.0252931312024
 20
280.1539955718606
 30
0.0
 11
318.3555018380033
 21
280.1539955718606
 31
0.0
  0
ARC
  8
ITEM_50
 10
315.1434143777403
 20
278.5037448843029
 30
0.0
 40
3.595
 50
357.652538261017
 51
27.32521165171718
  0
ARC
  8
ITEM_50
 10
318.2373805914653
 20
278.5037448843029
 30
0.0
 40
3.595
 50
152.6747883482829
 51
182.347461738983
  0
ARC
  8
ITEM_50
 10
293.7353974846028
 20
284.4957074033471
 30
0.0
 40
25.0
 50
349.937167620339
 51
10.06283237966088
  0
ARC
  8
ITEM_50
 10
339.6453974846029
 20
284.4957074033471
 30
0.0
 40
25.0
 50
169.937167620339
 51
190.0628323796609
  0
LINE
  8
ITEM_50
 10
305.7353974846028
 20
281.995707403347
 30
0.0
 11
305.7353974846028
 21
286.995707403347
 31
0.0
  0
LINE
  8
ITEM_50
 10
306.7353974846028
 20
281.495707403347
 30
0.0
 11
306.7353974846028
 21
277.595707403347
 31
0.0
  0
LINE
  8
ITEM_50
 10
306.7353974846028
 20
279.9957074033471
 30
0.0
 11
306.7353974846028
 21
277.9957074033471
 31
0.0
  0
LINE
  8
ITEM_25
 10
305.7353974846028
 20
282.345707403347
 30
0.0
 11
306.4783280758625
 21
281.9327253982056
 31
0.0
  0
ARC
  8
ITEM_50
 10
306.2353974846028
 20
281.495707403347
 30
0.0
 40
0.5
 50
0.0
 51
90.0
  0
ARC
  8
ITEM_50
 10
306.2353974846028
 20
287.495707403347
 30
0.0
 40
0.5
 50
270.0
 51
359.9999999999992
  0
LINE
  8
ITEM_25
 10
305.7353974846028
 20
286.645707403347
 30
0.0
 11
306.4783280758624
 21
287.0586894084884
 31
0.0
  0
LINE
  8
ITEM_50
 10
296.5146775744796
 20
281.995707403347
 30
0.0
 11
306.2353974846028
 21
281.995707403347
 31
0.0
  0
LINE
  8
ITEM_25
 10
296.1646775744795
 20
282.345707403347
 30
0.0
 11
305.7353974846027
 21
282.345707403347
 31
0.0
  0
LINE
  8
ITEM_50
 10
296.1646775744795
 20
282.345707403347
 30
0.0
 11
296.5146775744796
 21
281.995707403347
 31
0.0
  0
LINE
  8
ITEM_50
 10
295.1646775744795
 20
282.345707403347
 30
0.0
 11
296.1646775744795
 21
282.345707403347
 31
0.0
  0
LINE
  8
ITEM_50
 10
294.7075707932927
 20
282.8028141845338
 30
0.0
 11
295.1646775744795
 21
282.345707403347
 31
0.0
  0
LINE
  8
ITEM_25
 10
296.1646775744795
 20
286.6457074033471
 30
0.0
 11
305.7353974846029
 21
286.645707403347
 31
0.0
  0
LINE
  8
ITEM_50
 10
296.1646775744795
 20
286.6457074033471
 30
0.0
 11
296.5146775744796
 21
286.995707403347
 31
0.0
  0
LINE
  8
ITEM_50
 10
293.2355707932929
 20
285.8957074033471
 30
0.0
 11
294.0004640121062
 21
285.895707403347
 31
0.0
  0
LINE
  8
ITEM_50
 10
294.7075707932927
 20
286.1886006221603
 30
0.0
 11
295.1646775744795
 21
286.6457074033471
 31
0.0
  0
LINE
  8
ITEM_50
 10
296.5146775744796
 20
286.995707403347
 30
0.0
 11
306.2353974846028
 21
286.995707403347
 31
0.0
  0
LINE
  8
ITEM_50
 10
295.1646775744795
 20
286.6457074033471
 30
0.0
 11
296.1646775744795
 21
286.6457074033471
 31
0.0
  0
LINE
  8
ITEM_50
 10
293.2355707932929
 20
283.0957074033472
 30
0.0
 11
294.0004640121062
 21
283.0957074033472
 31
0.0
  0
LINE
  8
ITEM_50
 10
293.2355707932929
 20
285.8957074033471
 30
0.0
 11
293.2355707932929
 21
283.0957074033472
 31
0.0
  0
LINE
  8
ITEM_50
 10
306.7353974846028
 20
291.3957074033471
 30
0.0
 11
306.7353974846028
 21
277.595707403347
 31
0.0
  0
LINE
  8
ITEM_50
 10
306.7353974846028
 20
279.9957074033471
 30
0.0
 11
306.7353974846028
 21
277.9957074033471
 31
0.0
  0
LINE
  8
ITEM_50
 10
300.3496439811698
 20
286.9957074033416
 30
0.0
 11
299.735230747103
 21
286.9957074033416
 31
0.0
  0
LINE
  8
ITEM_50
 10
299.735230747103
 20
281.9957074033417
 30
0.0
 11
300.3496439811698
 21
281.9957074033417
 31
0.0
  0
LINE
  8
ITEM_50
 10
299.735230747103
 20
281.9957074033417
 30
0.0
 11
300.3496439811698
 21
281.9957074033417
 31
0.0
  0
LINE
  8
ITEM_50
 10
300.3496439811698
 20
286.9957074033416
 30
0.0
 11
299.735230747103
 21
286.9957074033416
 31
0.0
  0
ARC
  8
ITEM_50
 10
294.0004640121063
 20
286.895707403347
 30
0.0
 40
1.0
 50
269.9999999999966
 51
314.9999999999918
  0
ARC
  8
ITEM_50
 10
294.0004640121063
 20
282.0957074033472
 30
0.0
 40
1.0
 50
45.0000000000082
 51
90.00000000000335
  0
ARC
  8
ITEM_50
 10
279.1645969812678
 20
284.4957074033471
 30
0.0
 40
7.8
 50
146.1769604972894
 51
153.8230395027196
  0
ARC
  8
ITEM_50
 10
279.1645969812678
 20
284.4957074033471
 30
0.0
 40
7.8
 50
206.1769604972803
 51
213.8230395027109
  0
ARC
  8
ITEM_50
 10
279.1645969812678
 20
284.4957074033471
 30
0.0
 40
7.8
 50
266.1769604972888
 51
273.823039502711
  0
ARC
  8
ITEM_50
 10
279.1645969812678
 20
284.4957074033471
 30
0.0
 40
7.8
 50
326.1769604972889
 51
333.8230395027194
  0
ARC
  8
ITEM_50
 10
279.1645969812678
 20
284.4957074033471
 30
0.0
 40
7.8
 50
26.17696049728045
 51
33.82303950271087
  0
ARC
  8
ITEM_50
 10
279.1645969812678
 20
284.4957074033471
 30
0.0
 40
7.8
 50
86.17696049728901
 51
93.82303950271062
  0
POLYLINE
  8
ITEM_50
 66
     1
 10
0.0
 20
0.0
 30
0.0
  0
VERTEX
  8
ITEM_50
 10
272.1645974812678
 20
287.9366385273308
 30
0.0
  0
VERTEX
  8
ITEM_50
 10
272.1645974812678
 20
281.0547762793634
 30
0.0
  0
SEQEND
  8
ITEM_50
  0
POLYLINE
  8
ITEM_50
 66
     1
 10
0.0
 20
0.0
 30
0.0
  0
VERTEX
  8
ITEM_50
 10
272.6846634652254
 20
280.1539955718606
 30
0.0
  0
VERTEX
  8
ITEM_50
 10
278.6445309973103
 20
276.7130644478769
 30
0.0
  0
SEQEND
  8
ITEM_50
  0
POLYLINE
  8
ITEM_50
 66
     1
 10
0.0
 20
0.0
 30
0.0
  0
VERTEX
  8
ITEM_50
 10
279.6846629652254
 20
276.7130644478769
 30
0.0
  0
VERTEX
  8
ITEM_50
 10
285.6445304973103
 20
280.1539955718606
 30
0.0
  0
SEQEND
  8
ITEM_50
  0
POLYLINE
  8
ITEM_50
 66
     1
 10
0.0
 20
0.0
 30
0.0
  0
VERTEX
  8
ITEM_50
 10
286.1645964812678
 20
281.0547762793634
 30
0.0
  0
VERTEX
  8
ITEM_50
 10
286.1645964812678
 20
287.9366385273308
 30
0.0
  0
SEQEND
  8
ITEM_50
  0
POLYLINE
  8
ITEM_50
 66
     1
 10
0.0
 20
0.0
 30
0.0
  0
VERTEX
  8
ITEM_50
 10
285.6445304973103
 20
288.8374192348336
 30
0.0
  0
VERTEX
  8
ITEM_50
 10
279.6846629652254
 20
292.2783503588173
 30
0.0
  0
SEQEND
  8
ITEM_50
  0
POLYLINE
  8
ITEM_50
 66
     1
 10
0.0
 20
0.0
 30
0.0
  0
VERTEX
  8
ITEM_50
 10
278.6445309973103
 20
292.2783503588174
 30
0.0
  0
VERTEX
  8
ITEM_50
 10
272.6846634652254
 20
288.8374192348336
 30
0.0
  0
SEQEND
  8
ITEM_50
  0
CIRCLE
  8
ITEM_50
 10
279.1645969812678
 20
284.4957074033471
 30
0.0
 40
6.95
  0
LINE
  8
ITEM_50
 10
295.1646775744795
 20
286.6457074033471
 30
0.0
 11
295.1646775744795
 21
282.345707403347
 31
0.0
  0
LINE
  8
ITEM_50
 10
296.5146775744796
 20
286.995707403347
 30
0.0
 11
296.5146775744796
 21
281.995707403347
 31
0.0
  0
POINT
  8
ITEM_HILFE
 10
306.7353974846028
 20
284.4957074033471
 30
0.0
  0
POINT
  8
ITEM_HILFE
 10
279.1645969812678
 20
284.4957074033471
 30
0.0
  0
CIRCLE
  8
ITEM_50
 10
279.1645969812678
 20
284.4957074033471
 30
0.0
 40
1.0
  0
CIRCLE
  8
ITEM_50
 10
279.1645969812678
 20
284.4957074033471
 30
0.0
 40
4.283
  0
CIRCLE
  8
ITEM_50
 10
279.1645969812678
 20
284.4957074033471
 30
0.0
 40
5.0
  0
ARC
  8
ITEM_25
 10
279.1645969812678
 20
284.4957074033471
 30
0.0
 40
4.864
 50
262.203113089521
 51
172.5478461827292
  0
ENDSEC
  0
EOF
